VÍDEO AULAS

PARA ASSISTIR AULAS DE: VIOLÃO; GUITARRA; TECLADO E BAIXO, VÁ NOS MARCADORES: DICAS

Tablatura: Chord Melody 17 : Vem! Esta é a hora ( Acorde - Melodia - Solo - Violão e Guitarra)

By Jeffão Peres
Vem! Esta é a hora


E--2---0---2---3---2---2---0---3----2---2---0---0---2---3---2---0--
B--3----------------3------------3--------3---2---2-------------------
G--2----------------2------------0--------2---2---2-------------------
D--0----------------0------------0--------0----------------------------
A----------------------------------------------0---0-------------------
E-----------------------------------------------------------------------

E--3---2------- 2---2---0---2---3---2---0---3---2---2----0---0---0--
B--0---3---3---3---------------------3------- 3-------3----2----------
G--0---2---0---2---------------------2-------0--------2----2----------
D-----------0---0---------------------0-------0--------0---------------
A-------------------------------------------------------------0---------
E--0---2---3------------------------------------------------------------

E--2---3---2---0-- 3---2-------------3---3---3---3---3---2------2---
B-------------------3---3----3---3---3-----------------3------5---3--
G-------------------0---2----0---2---4-----------------4----------2--
D---------------------------- 0---0---5-----------------5----------0--
A----------------------------------------------------------------------
E-------------------0-----2---3-----------------------------------------

E--2---2-------3---3---3---3--3----2-----2---3---3---3---3---3---3-
B----------3---3----------------3------5---3---3----------------3------
G----------2---4----------------4----------2---4----------------4------
D----------0---5----------------5----------0---5----------------5------
A------------------------------------------------------------------------
E------------------------------------------------------------------------

E---5---7----------------------3---3---2-----2---0-------
B-------7---10---7---7---7---3-----------3------3---3---
G-------7-------- 7------------0------------------2----2---
D---------------- 7-------------------------------------0--
A--------------------------------------------------0-------
E-------7--------7-------------0---------------------------

Mais temas em Tablatura Chord Melody que você pode conferir em 
outras postagens:
Pomp and circumstance - Love me tender - Eu navegarei - Wave -
Pour Elise - Mais perto quero estar - Buscai primeiro - Not of this world -
Escorregando - Minueto - Nona Sinfonía - Jesus - Jazz blues 1 - Samba
de uma nota só - A Ele a glória ( porque Dele e por Ele ) - Vem! esta é
a hora - Oceano - O Barquinho - Sampa - Te agradeço - Meu bem 
querer - Garota de Ipanema - Eu sei que vou te amar - Carinhoso -
Coração de estudante - Este é o meu respirar - Assim como a corça -
A pantera cor de rosa - Em espírito e em verdade - Ele é exaltado -
Gente humilde - Poderoso Deus - Aclame ao Senhor - Santo! Santo!
Santo! cc9 - Yesterday - Over the rainbow - Os flintstones - Love of my
life - Quão preciosa são as horas - Pela luz dos olhos teus - My way -
Dei graças - Tristesse - Olha pra mim - Against all odds - True colors -
Heaven - Sonho de amor - Quanto amor - I want to know what love is -
Sou feliz com Jesus - Tears in heaven - Nos galhos secos - You'll be
in my heart