VÍDEO AULAS

PARA ASSISTIR AULAS DE: VIOLÃO; GUITARRA; TECLADO E BAIXO, VÁ NOS MARCADORES: DICAS

Escalas: Jônico ( Modo Maior) ( DO Maior)

By Jeffão Peres

Desenhos Simples ( Jônico)

DO Tônica
Modelo a partir da 3° corda
E-------------------5--7--8---8--7--5-------------------
B---------5--6--8-----------------------8--6--5---------
G--5--7-------------------------------------------7--5---
D----------------------------------------------------------
A----------------------------------------------------------
E----------------------------------------------------------

Modelo a partir da 4° corda
E-------------------------------------------------------------------------
B------------------------10--12--13---13--12--10----------------------
G-----------9--10--12-------------------------------12--10--9----------
D--10--12--------------------------------------------------------12--10-
A--------------------------------------------------------------------------
E---------------------------------------------------------------------------

Modelo a partir da 5° corda
E---------------------------------------------------------
B---------------------------------------------------------
G-------------------2--4--5---5--4--2-------------------
D---------2--3--5-----------------------5--3--2---------
A--3--5-------------------------------------------5--3---
E----------------------------------------------------------

Modelo a partir da 6° corda
E---------------------------------------------------------------
B---------------------------------------------------------------
G---------------------------------------------------------------
D---------------------7--9--10---10--9--7---------------------
A----------7--8--10-------------------------10--8--7----------
E--8--10------------------------------------------------10--8--

Como são modelos fechados ( sem corda solta), você 
pode utiliza-los em qualquer tom, apenas deslocando-os 
de acordo com a Tônica