VÍDEO AULAS

PARA ASSISTIR AULAS DE: VIOLÃO; GUITARRA; TECLADO E BAIXO, VÁ NOS MARCADORES: DICAS

Violão e Guitarra: Dedilhados 1 ( C, Dm, G )

By Jeffão Peres
Padrões para polegar sozinho e indicador, médio
e anelar juntos.
Atenção: P         A
1° Modelo
           C                    Dm                   G
E-----0-----0---------2-----2---------3-----3--
B-----1-----1---------3-----3---------0-----0--
G-----0-----0---------2-----2---------0-----0--
D-------------------0-----0---------------------
A--3-----3--------------------------------------
E-----------------------------------3-----3-----
2° Modelo
          C                 Dm                  G
E----0---0---------2---2-----------3---3--
B----1---1---------3---3-----------0---0--
G----0---0---------2---2-----------0---0--
D----------------0-------------------------
A--3---------------------------------------
E--------------------------------3---------
3° Modelo
          C                     Dm                    G
E--------0--0------------2--2------------3--3--
B--------1--1------------3--3------------0--3--
G--------0--0------------2--2------------0--0--
D------------------0--0-------------------------
A--3--3-----------------------------------------
E-----------------------------------3--3--------