VÍDEO AULAS

PARA ASSISTIR AULAS DE: VIOLÃO; GUITARRA; TECLADO E BAIXO, VÁ NOS MARCADORES: DICAS

Tablatura: Bass Melody 1 : Deus é tão bom ( Baixo - Melodia - Solo - Violão e Guitarra)

By Jeffão Peres


Deus é tão bom


E--------------2-----0------0------0-----3----2----
B---3----3--------------------------------------------
G-------------------------------------------------------
D---0--------------------------------------------0-----
A---------------------0--------------0-----------------
E-----------------------------0-------------------------


E---2----2----5----3-----0-----3-----2------0-------
B------------------------------------------------------3--
G----------------------------------------------------------
D---0-------------------------------------------------0--
A---------3----------2-----1------------0------4-------
E----------------------------------------------------------

Obs. Tocar a nota do Baixo sempre com o polegar