VÍDEO AULAS

PARA ASSISTIR AULAS DE: VIOLÃO; GUITARRA; TECLADO E BAIXO, VÁ NOS MARCADORES: DICAS

Tablatura: Bass Melody 3 : Parabéns pra você ( Happy Birthday to you ) ( Baixo - Melodia - Solo - Violão e Guitarra)

By Jeffão Peres


Parabéns pra você

E------------------------------------------------------------------------
B-----------------------1----0----------------------------3----1---1-
G--0---0----2----0--------------0-----0-----2----0----------------
D-----------------------------------------------0----------------------
A-------------3--------------------------------------------2----3------
E-----------------------------3-----------------------3-----------------


E---0----0----3----0---------------------1----1----0--------------------
B--------------------------1-----0-------------------------1---3---1---1-
G--------------------------------------2-------------------------------------
D-----------------------------------------------------------------------------
A---------------1------------------------------------------------2---3------
E---------------------------0----1--------------------3---------------------