VÍDEO AULAS

PARA ASSISTIR AULAS DE: VIOLÃO; GUITARRA; TECLADO E BAIXO, VÁ NOS MARCADORES: DICAS

Contra Baixo: Acorde Maior com Nona e Menor com Nona - I, V, VIII e IX ( C9, Cm9, D9, Dm9, E9, Em9, F9, Fm9, G9, Gm9, A9, Am9, B9, Bm9 )

By Jeffão Peres


I, V, VIII e IX
Por não ter terça, o Baixo I, V, VIII e IX pode ser aplicado
tanto em acorde maior como menor
E por ser simétrico, fica relativamente fácil sua execução
É importante observar a númeração da digitação para
se estabelecer um padrão
Obs.  I         V       VIII        IX
      C9 ou Cm9            D9 ou Dm9         E9 ou Em9
G-------------5----7--------------7----9---------------9----11----
D--------5---------------------7--------------------9----------------
A---3----------------------5--------------------7--------------------
E-----------------------------------------------------------------------
        F9 ou Fm9          G9 ou Gm9        A9 ou Am9
G--------------------------------------------------------------------
D-----------3-----5--------------5---7----------------7----9----
A-------3---------------------5--------------------7---------------
E---1---------------------3--------------------5-------------------
       B9 ou Bm9
G----------4---6----
D------4-------------
A--2-----------------
E---------------------
Obs. Os acordes não precisam ser necessariamente com nona
para aplicar esses Baixos
Mesmo em Tríades Maiores e Menores cabe bem essa função