VÍDEO AULAS

PARA ASSISTIR AULAS DE: VIOLÃO; GUITARRA; TECLADO E BAIXO, VÁ NOS MARCADORES: DICAS

Tablatura: Chord Melody 33 :Gente humilde ( Acorde - Melodia - Solo - Violão e Guitarra)

Gente humilde
By Jeffão Peres

E-------------------------------0--0--0--0---3---0---0---0--0---7--
B---0--0--0--3--3--3--3----2--------------1--------1-----------7--
G--------------4---------------0--------------0--------0-----------5--
D--------------4-----------------------------------------------------0--
A-------------------------------1--------------0--------0--------------
E--------------3---------------------------------------------------------

E--7--7--7--7--7---5--5---2----------------5---5--5--5---3---3--
B---------------------7-------3--3---3---3---3---------------2-------
G---------------------5-------4--4------------2---------------0--------
D---------------------0-------5--4--------------------------------------
A------------------------------------------------2--------------1-------
E----------------------------------3--------------------------------------

E--0--0---3--0----0--0--0--3--3--3--3----2--2----------2------------
B--2-------1-------1----------1---------------1-----3--3---3--0--0--0-
G--0-------0-------0----------2---------------2-------------4------------
D-------------------------------0---------------0---------------------------
A--1-------0-------0--------------------------------------------------------
E----------------------------------------------------------------3-----------

E-----------------0--0--0--0---3--0---0--0--0---7--7--7--7--7---5--
B--3--3--3--3--2--------------1-------1----------7------------------3--
G--4-------------0--------------0-------0----------5------------------5--
D--4-------------------------------------------------0------------------0--
A-----------------1--------------0-------0---------------------------------
E--3-------------------------------------------------------------------------

E--4--5----10--10---12--10---3---3--3--3----7---5------------------
B------------8---10---------------5---------------8-------8------3---3--
G------------7---10---------------4---------------8----------8---4---4--
D--------------------------------------------------------------------4---5--
A-----------10--10---------------3-----------------------------------------
E----------------------------------------------------8---------------3---0--

E------------------------------7--7--7--7---3---
B--3--3--3---5--5--5--5---7---------------3---
G--------------5--------------5--------------4--
D--------------5--------------0--------------5---
A--------------0-----------------------------------
E---------------------------------------------------

Mais temas em Tablatura Chord Melody que você pode conferir em 
outras postagens:
Pomp and circumstance - Love me tender - Eu navegarei - Wave -
Pour Elise - Mais perto quero estar - Buscai primeiro - Not of this world -
Escorregando - Minueto - Nona Sinfonía - Jesus - Jazz blues 1 - Samba
de uma nota só - A Ele a glória ( porque Dele e por Ele ) - Vem! esta é
a hora - Oceano - O Barquinho - Sampa - Te agradeço - Meu bem 
querer - Garota de Ipanema - Eu sei que vou te amar - Carinhoso -
Coração de estudante - Este é o meu respirar - Assim como a corça -
A pantera cor de rosa - Em espírito e em verdade - Ele é exaltado -
Gente humilde - Poderoso Deus - Aclame ao Senhor - Santo! Santo!
Santo! cc9 - Yesterday - Over the rainbow - Os flintstones - Love of my
life - Quão preciosa são as horas - Pela luz dos olhos teus - My way -
Dei graças - Tristesse - Olha pra mim - Against all odds - True colors -
Heaven - Sonho de amor - Quanto amor - I want to know what love is -
Sou feliz com Jesus - Tears in heaven - Nos galhos secos - You'll be
in my heart