VÍDEO AULAS

PARA ASSISTIR AULAS DE: VIOLÃO; GUITARRA; TECLADO E BAIXO, VÁ NOS MARCADORES: DICAS

Edição especial: Músicas de Natal 2: Noite Feliz - Special edition: Christmas song 2: Silent Night ( Melodia - Solo - Acordes - Chord Melody - 10, 23, 34, 45, 65 - DO, RE, MI ...)

Noite Feliz - Silent Night
By Jeffão Peres

Números para Violão e Guitarra
30 / 32 - 30 - 42 / 30 / 32 - 30 - 42 /
23 / 23 - 20 / 21 / 21 - 30 /
32 / 32 - 21 / 20 - 32 - 30 / 32 - 30 - 42 /
32 / 32 - 21 / 20 - 32 - 30 / 32 - 30 - 42 /
23 / 23 - 11 - 23 - 20 - 21 / 10 /
21 - 30 - 42 - 30 / 43 - 40 - 53

Teclatura: Chord melody
 C
SOL / LA - SOL - MI / SOL / LA - SOL - MI
 G                     C
RE - RE - SI / DO - DO - SOL
 F           F#m(5b)               Em                       C
LA / LA  - DO   /   SI - LA - SOL / LA - SOL - MI
 F           F#m(5b)               Em                       C
LA / LA - DO   /    SI - LA - SOL / LA - SOL - MI
 G          G#m(5b)                Am   D7
RE / RE -  FA   /   RE - SI - DO / MI
  C                       G                       C
DO - SOL - MI - SOL / FA - RE - DO

Tablatura: Bass melody

E--0---2---0---------0---2---0---------7---7---------5---5------
B----------------2------------------2--------------9--------------5--
G-----------------------------------------------------------------------
D-----------------------------------------------------------------------
A--0-------------------0---------------------------------0----------
E------------------------------------------0--------------------------

E--2---2---5----4---2---0---2---0---------2---2---5---4---2---0-
B-----------4----------------------------2-------------4----------------
G-----------5-------------------------------------------5---------------
D--0-------------------------------------------0--------------------------
A--------------------------4-------------0----------------------------4-
E--------------------------------------------------------------------------

E--2---0-------7----7---10---7---4---5---9---5---0------0--------------
B-----------2-------------9----6-------------7-----------2-------3---0-----
G----------------------------------------------8-----------------------------2-
D-----------------------------------------4-------------------------------------
A-----------0---------------------------------------0------------------------0-
E----------------0----------------------------------------------0--------------

Tablatura: Chord melody

E------------------------------------------------------------------------------
B----------------------------------------3---3---0-----1---1---------------
G--0---2---0--------0---2---0--------0--------0-----0-------0---2---2-
D--2------------2----2------------2----0--------3----2-------2---3------
A--3------------------3----------------------------2----3-------3---3-----
E-----------------------------------------3-----------------------0---1------

E--------------------------------------------------------------------------
B--1---0----------------------------------1---0------------------------
G--2-------2---0---2---0-------2---2---2-------2---0---2---0-----
D--1------------2------------2---3-------1------------2------------2-
A----------------2------------3---3---------------------2------------3-
E--2------------0-----------------1-------2------------0---------------

E-----------1------------------0-----------------------------------
B--3---3--0---3--------1----1---1-------------------------1--
G--0-------0---4---4---2----2---0---0-------0------------0--
D--0------------3--------2--------2--------2--0---3---0---2--
A--------------------------0--------3------------2------------3--
E--3-------3---4--------------2----------------3----------------