VÍDEO AULAS

PARA ASSISTIR AULAS DE: VIOLÃO; GUITARRA; TECLADO E BAIXO, VÁ NOS MARCADORES: DICAS

Edição especial: Músicas de Natal 3: Louvamos, Louvamos, Senhor e adoramos - Special edition: Christmas song 3: O come, all ye faithful ( Melodia - Solo - Acordes - Chord Melody - 10, 23, 34, 45, 65 - DO, RE, MI ...)

Louvamos, louvamos, Senhor e adoramos
O come, all ye faithful
By Jeffão Peres

Números para Violão e Guitarra
32 - 32 - 42 / 32 - 20 - 42 / 42 - 22 - 20 - 22 - 23 - 22 - 20 /
32 - 32 / 31 - 44 - 31 - 32 - 20 / 22 - 31 / 44 / 42 - 42 /
42 - 10 / 23 - 22 - 23 / 22 - 22 - 20 - 22 - 32 - 20 - 31 - 44 - 42 /
32 - 32 - 31 - 32 - 20 - 32 / 42 / 22 - 22 - 20 - 22 - 23 - 22 /
20 / 22 - 23 - 22 - 20 - 32- 31 - 32 - 20 / 23 - 22 / 20 / 32 - 32 //

Teclatura: Chord Melody
         A                  E                   A                                   E 
LA - LA / MI / LA - SI /  MI - MI / DO# - SI - DO# - RE - DO# - SI
        Bm                           E                                   B
LA - LA / SOL# - FA# - SOL# - LA - SI / DO# - SOL# 
 B7            E   E7   A                        D      A                   B7
FA# - MI - MI / MI - MI / RE - DO# - RE / DO# - DO#  - SI - DO# -
                 E                                 A     ( E )    A    (E)    A 
LA - SI - SOL# - FA# - MI / LA - LA - SOL# - LA - SI - LA / MI
                      (E)     A       D      A        E
DO# - DO# - SI - DO# - RE - DO# /  SI
           Bm                               E
DO# - RE - DO# - SI - LA - SOL# - LA - SI
           A       E           A 
RE - DO# / SI / LA - LA

Tablatura: Chord Melody

E----------------------------------------------------------------------------
B---------------------0-------------2----0----2---3---2---0-----------
G--2---2--------2---1-------------2----1----2---2---2---1---2---2--
D-------2---2--------2---2---2---2----0----2---0---2---2--------4--
A-------0---------------------------0---------0---2------------------2--
E----------------------0------------------0-------------0---0------------

E-----------------------------------------------------------------------------
B-----------------------2------------------------5---3---2---3---2---2--
G--1------1---2---4------1---------------------2---0---2---2-------2--
D-----4---2---2---2------2---4--------2---2---2-------2---0-------2--
A---------------------------2---6---7---2---5---0--2---4------------4--
E----------0---2---4--------------------0---4-----------------------------

E------------------------------------------------------------------------------
B------------------0-------------------------------------------------2---2--
G---4---6---2--------1------------2---2---1---2---4---2--------2---2--
D---4--------1--------0---4---2-------2---2---2---4---2---2---2---2--
A---6--------2--------2-----------------0-------0---5---0------------0--
E----------------------0---------------------0----------------------0-------

E-----------------------------------------------------------------------------------
B--0---2---3---2---0---2---3---2--------------------------3---2---0----------
G--1---2---2---2---1---2---2---2---4---2---1---2---4---4---2---1---2---2-
D--2---2---0---2---2---2---0---2---4---2---2---4---2---4---2---0--------2-
A-------0---2---0----------------------5---4---2---0-------5-----------------0-
E--0-----------------4---3---2---0-----------------2---4--------0---0-----------