VÍDEO AULAS

PARA ASSISTIR AULAS DE: VIOLÃO; GUITARRA; TECLADO E BAIXO, VÁ NOS MARCADORES: DICAS

Tablatura: Chord Melody 53 : Tears in heaven ( Acorde - Melodia - Solo - Violão e Guitarra)

Tears in heaven
By Jeffão Peres

E----------------------------------------------------------------------------------------
B---------------------2--h3--p2--------5-------5--------2--------2--------2-------
G-----------------------------------2----4-------4--------2--------2--------2-------
D---------------2-----------------------------------------------------------------------
A-----------0---------------------------------------------------------------------------
E--0--h2--------------------------------4---4------4----2----2-------2----0---0--

E-------------------------------------------------------------------------------
B--2-------3--------3--------3-------3--------2-------2-------2-------2--
G--2-------2--------2--------2-------1--------2-------2-------2-------2--
D-------------------------------------------------------------------------------
A-------------------------------------------------0----0------0-------0------
E------0---2----2-------2---0---0-------0----------------------------------

E----------------------------------------------5--s7--s5-------------------------------------
B------------------2------5---5---2---------5--s7--s5---5--s7--s5---------------------
G---------------------2---4--------2------------------------4--s6--s4---4--s6--4---2--
D--------------2----------2--------2----------------------------------------4--s6------0--
A-----------0----------------------------------------------------------------------------------
E--0--h2-----------------4--------2---0-------------------------------------------------2-

E-------------------------------------------------------------------------------2--------------
B--3--3---2--0------2--0--0------2------3---------------------2-------5-------2---0----
G----------2-----2---1------1------2------4------------------------2---4-------2-------2-
D----------2----------2----------------------------------------2----------2-------2----------
A----------0-------------------------------------------------0----------------------------------
E----------------------0----------0------0---------0--h2----------------4-------2----------

E------------------------0-------------------------------------------------------5---5---7--4-
B--------------------3------2--0-------2---0---0------2------3------7-------2-----------2-
G--2--1-------2-----------2------2---1--------1------2------4------7-------2-----------1-
D----------2---0-----------2-----------2---------------------------------------4-----------3-
A----------------------------0--------------------------------------------------------------------
E------0-------2------------------------0-----------0------0------0-------0-----------------

E--3---3---5---2--------------------------------------------------------------------
B--2-------------2--------2--3-------------------------3---3---3---2-------------
G--0-------------3---4-------2---2---4---2-----------2---2---2-------4--4--2--
D--2---------------------------4----------------4--2---4---4---4--------------2--
A--------------------------1---2-------------------------------------------------0--
E-----------------2---------------------------------------0---0---0-----------------

E-----------------------------------------------------------------------------------------------
B--2--h3--p2--------5-------5--------2-------2--------2--------2-------3-------3-------
G-----------------2---4-------4--------2-------2--------2--------2-------2-------2-------
D-----------------------------------------------------------------------------------------------
A------------------------------------------------------------------------------------------------
E----------------------4---4-------4---2----2------2----0----0-----0----2---2-------2--

E-----------------------------------------------------------------------0---0--------------------
B---3-------3------2-------2------2------2--------2-----------------1--------3---3---1--1-
G---2-------1------2-------2------2------2--------2-----------------0--------0--------2--2-
D---------------------------------------------------------------------------------0--------2--2-
A--------------------0---0------0------0--------0--------0--2--3-------------2--------0-----
E---0---0------0------------------------------------------------------------------------------3-

E-----------------------------------------------0---0-------------------------------------------
B-------3--------0---0---0---0---1---3------1--------3---3---1---1-------3------0---0--3-
G--2---2---2---0---0---0---------------------0--------0-------2---2---2---2--2--0--------
D-------0--------0---0---0------------------------------0-------2---2--------0-----0------
A------------------------------------0---2---3-----------2-------0-----------------------------
E-------2--------3---2---0---3---------------------------------------3--------2-----3---2--

E---0----------------------------------
B---0-------2-------3-------7-------
G---2-------2-------4-------7-------
D--------------------------------------
A--------------------------------------
E---0---0-------0-------0-------0--

Obs. h --------- Hammer-on : Ligar para frente ( dedo diferente)
         p --------- Pull-off : ligar para trás ( dedo diferente)
         s --------- Slide : arrastar ( mesmo dedo)

Mais temas em Tablatura Chord Melody que você pode conferir em 
outras postagens:
Pomp and circumstance - Love me tender - Eu navegarei - Wave -
Pour Elise - Mais perto quero estar - Buscai primeiro - Not of this world -
Escorregando - Minueto - Nona Sinfonía - Jesus - Jazz blues 1 - Samba
de uma nota só - A Ele a glória ( porque Dele e por Ele ) - Vem! esta é
a hora - Oceano - O Barquinho - Sampa - Te agradeço - Meu bem 
querer - Garota de Ipanema - Eu sei que vou te amar - Carinhoso -
Coração de estudante - Este é o meu respirar - Assim como a corça -
A pantera cor de rosa - Em espírito e em verdade - Ele é exaltado -
Gente humilde - Poderoso Deus - Aclame ao Senhor - Santo! Santo!
Santo! cc9 - Yesterday - Over the rainbow - Os flintstones - Love of my
life - Quão preciosa são as horas - Pela luz dos olhos teus - My way -
Dei graças - Tristesse - Olha pra mim - Against all odds - True colors -
Heaven - Sonho de amor - Quanto amor - I want to know what love is -
Sou feliz com Jesus - Tears in heaven - Nos galhos secos - You'll be
in my heart