VÍDEO AULAS

PARA ASSISTIR AULAS DE: VIOLÃO; GUITARRA; TECLADO E BAIXO, VÁ NOS MARCADORES: DICAS

Cavaquinho : Diatônica 6 ( Escala de LA Maior e FA# Menor )

By Jeffão Peres

Escala de LA Maior e FA# Menor
Movimento descendente.
Para o movimento ascendente basta subir com
a mesma digitação
   1° Modelo
D--------------------------------0---2---4--
B------------------------0---2---------------
G---------------1---2------------------------
D--0---2---4--------------------------------
   2° Modelo
D------------------------------------------6---7---9-
B-----------------------------3---5---7--------------
G---------------2---4---6-----------------------------
D--2---4---6-----------------------------------------
  3° Modelo
D--------------------------------------------7---9---11-
B------------------------------5---7---9-----------------
G---------------4---6---7--------------------------------
D--4---6---7---------------------------------------------
   4° Modelo
D--------------------------------------------9---11---12--
B-----------------------------7---9---10-------------------
G---------------6---7---9----------------------------------
D--6---7---9-----------------------------------------------

Você pode conferir mais Tons em outras Postagens