VÍDEO AULAS

PARA ASSISTIR AULAS DE: VIOLÃO; GUITARRA; TECLADO E BAIXO, VÁ NOS MARCADORES: DICAS

Contra Baixo: Acordes 1 : Tríade Aberta I, III e I, IIIm ( C, Dm, F, Am, B ...)

By Jeffão Peres


O exemplos a seguir podem ser aplicados em várias 
situações e diversas formas:
* Tocadas simultaneamente
* Arpejando descendente
* Arpejando ascendente 
* Arpejando descendente e ascendente
Como o Baixo é um instrumento grave por natureza, deve-se
ter bom senso e referências de outros baixistas para uma melhor 
aplicação dos acordes.
Obs. Tônica - Terça Maior - Terça Menor
          F        Gm        Am       Bb          C          Dm
G-----2---------3---------5---------7---------9---------10---
D------------------------------------------------------------------
A------------------------------------------------------------------
E-----1---------3---------5---------6---------8---------10----
         G         Am        Bm        C            D          Em
G-----4---------5---------7---------9---------11--------12---
D-------------------------------------------------------------------
A-------------------------------------------------------------------
E-----3---------5---------7---------8---------10--------12----
         A          Bm      C#m       D             E         F#m
G-----6---------7---------9--------11---------13--------14---
D-------------------------------------------------------------------
A-------------------------------------------------------------------
E-----5---------7---------9--------10---------12--------14---
         B         C#m    D#m        E            F#       G#m 
G-----8---------9--------11-------13---------15--------16---
D-------------------------------------------------------------------
A-------------------------------------------------------------------
E-----7---------9--------11-------12---------14--------16---
         C        Dm       Em         F             G           Am
G-----9-------10-------12-------14---------16---------17---
D-------------------------------------------------------------------
A-------------------------------------------------------------------
E-----8-------10-------12-------13---------15---------17---
          D        Em      F#m        G            A           Bm
G-----11------12-------14-------16--------18---------19---
D-------------------------------------------------------------------
A-------------------------------------------------------------------
E-----10------12-------14-------15--------17---------19---
           E      F#m     G#m        A           B         C#m
G-----13------14-------16-------18---------8----------9---
D-----------------------------------------------------------------
A------------------------------------------------------------------
E-----12------14-------16-------17---------7-----------9---


Observe que só existem dois padrões: Maior e Menor 
Você pode conferir mais exemplos de Acordes para Baixo
em outras Postagens