VÍDEO AULAS

PARA ASSISTIR AULAS DE: VIOLÃO; GUITARRA; TECLADO E BAIXO, VÁ NOS MARCADORES: DICAS

Contra Baixo: Tétrade 3 - Arpejo Tríade Maior e Menor com Nona ( C9, D9, E9, F#m9, Am9, Bbm9 )

By Jeffão Peres


Os Arpejos para Tríade Maior e Menor com Nona pode
ser feito com um desenho simétrico que lembra muito
a Pentatônica 3/2. 
Graus: Tônica - Terça - Terça menor - Quinta - Nona


    FA Maior com 9°
G----------------------------5------5----------------------------
D-----------------3--5--7-------------7--5--3-----------------
A--------------3-----------------------------------3-------------
E--1--3--5-------------------------------------------5--3--1--
    FA Menor com 9°
G---------------------------5------5------------------------------
D----------------3--5--6-------------6--5--3-------------------
A-------------3-----------------------------------3---------------
E--1--3--4------------------------------------------4--3--1----
   SOL Maior com 9°
G---------------------------7------7------------------------------
D----------------5--7--9-------------9--7--5-------------------
A-------------5-----------------------------------5---------------
E--3--5--7------------------------------------------7--5--3---
   SOL Menor com 9°
G---------------------------7------7------------------------------
D----------------5--7--8------------8--7--5--------------------
A-------------5----------------------------------5----------------
E--3--5--6------------------------------------------6--5--3----
Fique atento na digitação para poder "fluir" melhor
Números de dedos da mão esquerda
  Para Maior
G---------------------------1-OU-2---------------------------
D----------------1--2--4--------------4--2--1----------------
A-------------1------------------------------------1------------
E--1--2--4-------------------------------------------4--2--1-
  Para Menor
G---------------------------1-OU-3-----------------------------
D----------------1--3--4--------------4--3--1------------------
A-------------1-------------------------------------1-------------
E--1--3--4---------------------------------------------4--3--1-


Obs. 1 - Indicador, 2 - Médio, 3 - Anelar, 4 - Mínimo