VÍDEO AULAS

PARA ASSISTIR AULAS DE: VIOLÃO; GUITARRA; TECLADO E BAIXO, VÁ NOS MARCADORES: DICAS

Contra Baixo: Diatônica 2 - Escala Maior e Menor Natural ( RE Maior e SI Menor )


By Jeffão Peres

Escala Diatônica: RE Maior e SI Menor Natural
Movimento descendente.
Para o movimento ascendente, basta subir com
a mesma digitação
  7° Modelo
G-----------------------------------2--4--6-
D------------------------2--4--5------------
A-------------2--4--5-----------------------
E--2--3--5----------------------------------
  1° Modelo
G-----------------------------------4--6--7-
D------------------------4--5--7------------
A-------------4--5--7-----------------------
E--3--5--7----------------------------------
   2° Modelo
G-----------------------------------6--7--9-
D------------------------5--7--9------------
A-------------5--7--9-----------------------
E--5--7--9----------------------------------
   3° Modelo
G-----------------------------------------7--9--11-
D----------------------------7--9--11--------------
A---------------7--9--10---------------------------
E--7--9--10----------------------------------------
   4° Modelo
G-----------------------------------------------9--11--12--
D--------------------------------9--11--12-----------------
A-----------------9--10--12--------------------------------
E--9--10--12-----------------------------------------------
   5° Modelo
G---------------------------------------------------11--12--14-
D-----------------------------------11--12--14-----------------
A-------------------10--12--14---------------------------------
E--10--12--14--------------------------------------------------
   6° Modelo
G--------------------------------------------------12--14--16--
D----------------------------------12--14--16------------------
A------------------12--14--16----------------------------------
E--12--14--15--------------------------------------------------

Você pode encontrar mais Tons em outras Postagens