VÍDEO AULAS

PARA ASSISTIR AULAS DE: VIOLÃO; GUITARRA; TECLADO E BAIXO, VÁ NOS MARCADORES: DICAS

Contra Baixo: Escala Pentatônica Blues 4 - Blue Note ( RE )


By Jeffão Peres

Escala Pentatônica Blues de RE
Movimento descendente.
Para o movimento ascendente, basta voltar subindo com as 
mesmas notas
Blue Notes
   3° Modelo
G---------------------------0--1--2-
D--------------------0--3------------
A-------------0--3-------------------
E--1--3--4--------------------------
  4° Modelo
G------------------------------2--5-
D-------------------3--5--6--------
A-------------3--5------------------
E--3--4--5-------------------------
  5° Modelo
G--------------------------------5--7--
D---------------------5--6--7---------
A------------5--8----------------------
E---5--8-------------------------------
  1° Modelo
G------------------------------------7--10-
D---------------------------7--10----------
A-------------8--10--11------------------
E--8--10-----------------------------------
  2° Modelo
G---------------------------------------10--12--13--
D-----------------------------10--12------------------
A-------------10--11--12-----------------------------
E--10--13----------------------------------------------

Você também pode conferir mais Tons em outras Postagens.