VÍDEO AULAS

PARA ASSISTIR AULAS DE: VIOLÃO; GUITARRA; TECLADO E BAIXO, VÁ NOS MARCADORES: DICAS

Contra Baixo: Escala Pentatônica Blues 5 - Blue Note ( MI )


By Jeffão Peres

Escala Pentatônica Blues MI 
Movimento descendente.
Para o movimento ascendente, basta voltar subindo com as 
mesmas notas
Blue Notes
   2° Modelo
G----------------------------0--2--3-
D---------------------0--2-----------
A----------0--1--2------------------
E--0--3------------------------------
  3° Modelo
G--------------------------2--3--4-
D-------------------2--5-----------
A-------------2--5-----------------
E--3--5--6------------------------
  4° Modelo
G-------------------------------4--7-
D---------------------5--7--8-------
A--------------5--7------------------
E---5--6--7-------------------------
  5° Modelo
G-----------------------------------7--9-
D------------------------7--8--9--------
A-------------7--10---------------------
E--7--10--------------------------------
  1° Modelo
G--------------------------------------9--12-
D-----------------------------9--12----------
A-------------10--12--13------------------
E--10--12-----------------------------------

Você também pode conferir mais Tons em outras Postagens.