VÍDEO AULAS

PARA ASSISTIR AULAS DE: VIOLÃO; GUITARRA; TECLADO E BAIXO, VÁ NOS MARCADORES: DICAS

Contra Baixo: Escala Pentatônica Blues 6 - Blue Note ( FA )

By Jeffão Peres

Escala Pentatônica Blues de FA
Movimento descendente.
Para o movimento ascendente, basta voltar subindo com as 
mesmas notas
Blue Notes
   2° Modelo
G----------------------------1--3--4-
D---------------------1--3------------
A----------1--2--3-------------------
E--1--4-------------------------------
  3° Modelo
G-------------------------3--4--5-
D-------------------3--6-----------
A-------------3--6-----------------
E--4--6--7------------------------
  4° Modelo
G--------------------------------5--8-
D---------------------6--8--9--------
A--------------6--8------------------
E---6--7--8-------------------------
  5° Modelo
G------------------------------------8--10-
D------------------------8--9--10---------
A-------------8--11------------------------
E--8--11----------------------------------
  1° Modelo
G----------------------------------------10--13-
D------------------------------10--13-----------
A-------------11--13--14----------------------
E--11--13--------------------------------------

Você também pode conferir mais Tons em outras Postagens.