VÍDEO AULAS

PARA ASSISTIR AULAS DE: VIOLÃO; GUITARRA; TECLADO E BAIXO, VÁ NOS MARCADORES: DICAS

Violão e Guitarra: Escala Pentatônica 7 ( LA Maior e FA# Menor )

By Jeffão Peres

Escala Pentatônica LA Maior e FA# Menor

Movimento descendente.
Para o movimento ascendente, basta voltar subindo com as 
mesmas notas

   2° Modelo
E-----------------------------------------2--5-
B---------------------------------2--5---------
G--------------------------2--4----------------
D------------------2--4------------------------
A----------2--4--------------------------------
E--2--5----------------------------------------

  3° Modelo
E-----------------------------------------5--7-
B---------------------------------5--7---------
G-------------------------4--6-----------------
D-----------------4--7-------------------------
A----------4--7--------------------------------
E--5--7----------------------------------------

  4° Modelo
E-----------------------------------------------7--9--
B-------------------------------------7--10-----------
G-----------------------------6--9---------------------
D---------------------7--9-----------------------------
A-------------7--9-------------------------------------
E---7--9-----------------------------------------------

  5° Modelo
E---------------------------------------------------------9--12-
B----------------------------------------------10--12----------
G------------------------------------9--11---------------------
D------------------------9--11---------------------------------
A-------------9--12---------------------------------------------
E--9--12--------------------------------------------------------

  1° Modelo
E---------------------------------------------------------12--14--
B----------------------------------------------12--14-------------
G-----------------------------------11--14------------------------
D------------------------11--14-----------------------------------
A-------------12--14----------------------------------------------
E--12--14---------------------------------------------------------

Você também pode conferir mais Tons em outras Postagens.