VÍDEO AULAS

PARA ASSISTIR AULAS DE: VIOLÃO; GUITARRA; TECLADO E BAIXO, VÁ NOS MARCADORES: DICAS

Violão e Guitarra: Escala Pentatônica 8 ( SI Maior e SOL# Menor )

By Jeffão Peres

Escala Pentatônica SI Maior e SOL# Menor
Movimento descendente.
Para o movimento ascendente, basta voltar subindo com as 
mesmas notas

   1° Modelo
E-----------------------------------------2--4-
B----------------------------------2--4--------
G--------------------------1--4----------------
D------------------1--4------------------------
A----------2--4--------------------------------
E--2--4----------------------------------------

  2° Modelo
E-----------------------------------------4--7-
B---------------------------------4--7---------
G-------------------------4--6-----------------
D-----------------4--6-------------------------
A----------4--6--------------------------------
E--4--7----------------------------------------

  3° Modelo
E-----------------------------------------------7--9-
B-------------------------------------7--9-----------
G-----------------------------6--8-------------------
D---------------------6--9---------------------------
A------------6--9-----------------------------------
E---7--9---------------------------------------------

  4° Modelo
E--------------------------------------------------------9--11--
B----------------------------------------------9--12-----------
G------------------------------------8--11---------------------
D------------------------9--11---------------------------------
A-------------9--11--------------------------------------------
E--9--11-------------------------------------------------------

  5° Modelo
E---------------------------------------------------------11--14--
B----------------------------------------------12--14-------------
G-----------------------------------11--13------------------------
D------------------------11--13-----------------------------------
A-------------11--14----------------------------------------------
E--11--14---------------------------------------------------------

Você também pode conferir mais Tons em outras Postagens.