VÍDEO AULAS

PARA ASSISTIR AULAS DE: VIOLÃO; GUITARRA; TECLADO E BAIXO, VÁ NOS MARCADORES: DICAS

Contra Baixo: Acompanhamentos 3 ( Rock'n Roll 1 )

By Jeffão Peres
Rock'n Roll 1
              A                                                 D       
G---------------------------------------------------------2-2--4-2--------
D----------------2-2---4-2---------------0-0---4-4---------------------
A--0-0---4-4--------------------------------------------------------------
E-----------------------------------------------------------------------------
                  A                                                     E
G-----------------------------------------------------------------------------
D----------------2-2---4-2-------------------------------------------------
A--0-0---4-4--------------------------------------5-5---4-4---2-2-----
E--------------------------------------------0-0-----------------------------


                  C                                                  F
G------------------------2---------------------------------------------------
D--------2-2---5-5------5--------------------------------------0---------
A--3-3----------------------------------------------0-0---3-3----3-------
E---------------------------------------------1-1----------------------------
                       C                                                 G
G-----------------------2-----------------------------------------------------
D--------2-2---5-5------5--------------------------------------------------
A--3-3-------------------------------------------------------------5-5------
E----------------------------------------------3-3---1-1---0-0------------


               G                                                       C
G--------------------------------------------------------------------2----------
D------------------------2----------------------------2-2---5-5-----5-------
A---------2-2---5-5------5------------------3-3-----------------------------
E--3-3--------------------------------------------------------------------------
                    G                                                        D
G---------------------------------------------------------------------------------
D-----------------------2--------------------------------------------------------
A---------2-2---5-5-----5-------------------5-5---3-3---2-2---0-0-------
E--3-3---------------------------------------------------------------------------


Você também pode conferir mais acompanhamentos em outras
postagens