VÍDEO AULAS

PARA ASSISTIR AULAS DE: VIOLÃO; GUITARRA; TECLADO E BAIXO, VÁ NOS MARCADORES: DICAS

Contra Baixo: Oitavas 2 ( DO, RE, MI, FA, SOL, LA, SI )

By Jeffão Peres
Acompanhamento com oitavas
  7x              1x             7x           1x              7x              1x        
G------5-------------4------------2--------------------------------------------
D-----------------------------------------------5-------------3-----------4----
A--3------------2------------0--------------------------------------------------
E------------------------------------------3-------------1------------2---------
        5x          1x            1x            1x
G--------------------------------------------7--
D-------5----------3-----------2---------------   Retorna no início
A----------------------------------------5-------
E---3----------1-----------0-------------------

  7x              1x             7x           1x              7x              1x        
G------7-------------6------------4--------------------------------------------
D-----------------------------------------------7-------------5-----------6----
A--5------------4------------2--------------------------------------------------
E------------------------------------------5-------------3------------4---------
        5x          1x           1x            1x
G------------------------------------------------
D-------7----------5-----------4-----------2--   Retorna no início
A-------------------------------------------------
E---5----------3-----------2-----------0-------

  7x              1x           7x            1x             7x            1x        
G---------------------------------9-----------7------------5----------6----------
D------5-----------4---------------------------------------------------------------
A----------------------------7------------5------------3----------4---------------
E--3-----------2--------------------------------------------------------------------
        5x          1x           1x           1x
G-------7--------5-----------4----------2-----------
D------------------------------------------------------   Retorna no início
A----5--------3----------2-----------0--------------
E------------------------------------------------------

Tente aplicar esses padrões tanto no Pizzicato como no Slap

Você também pode conferir mais acompanhamentos em outras
postagens