VÍDEO AULAS

PARA ASSISTIR AULAS DE: VIOLÃO; GUITARRA; TECLADO E BAIXO, VÁ NOS MARCADORES: DICAS

Violão e Guitarra: Acordes Simples ( Am, G, F, E, D, Bm, Em, A7, D7 )

By Jeffão Peres


Acordes Simples

          Am        G         F          E
E-----0-------3-------0-------0--
B-----1-------0-------1-------0--
G-----2-------0-------2-------1--
D-----2-------0-------3-------2--
A-----0-------2---------------2--
E-------------3---------------0--
         D        Bm        Em        A7
E-----2-------2-------0-------0--
B-----3-------3-------0-------2--
G-----2-------4-------0-------0--
D-----0-------0-------2-------2--
A---------------------2-------0--
E---------------------0-----------
        G         Em        Am       D7
E-----3-------0-------0-------2--
B-----0-------0-------1-------1--
G-----0-------0-------2-------2--
D-----0-------2-------2-------0--
A-----2-------2-------0-----------
E-----3-------0-------------------
Dedos da mão esquerda
1 Indicador
2 Médio
3 Anelar
4 Mínimo

Você pode conferir mais categorias de Acordes em outras
postagens.