VÍDEO AULAS

PARA ASSISTIR AULAS DE: VIOLÃO; GUITARRA; TECLADO E BAIXO, VÁ NOS MARCADORES: DICAS

Contra Baixo: Escala Pentatônica 3 ( MI Maior e DO# Menor )

By Jeffão Peres

Escala Pentatônica de MI Maior e DO# Menor
Movimento Descendente.
Para o movimento ascendente basta subir com a mesma digitação
   4° Modelo
G-----------------------------1---4--
D--------------------2---4-----------
A-----------2---4--------------------
E--2---4-----------------------------
   5° Modelo
G--------------------------------4---6-
D----------------------4---6-----------
A------------4---7---------------------
E--4---7-------------------------------
   1° Modelo
G-----------------------------------6---9--
D------------------------6---9-------------
A-------------7---9------------------------
E--7---9-----------------------------------
   2° Modelo
G-----------------------------------------9---11--
D----------------------------9---11---------------
A---------------9---11----------------------------
E--9---12-----------------------------------------
   3° Modelo
G-----------------------------------------11---13-
D----------------------------11---14--------------
A---------------11---14---------------------------
E--12---14----------------------------------------

Você pode conferir mais Tons em outras Postagens