VÍDEO AULAS

PARA ASSISTIR AULAS DE: VIOLÃO; GUITARRA; TECLADO E BAIXO, VÁ NOS MARCADORES: DICAS

Contra Baixo: Escala Pentatônica 6 ( SOL Maior e MI Menor )

By Jeffão Peres

Escala Pentatônica de SOL Maior e MI Menor
Movimento Descendente.
Para o movimento ascendente basta subir com a mesma digitação
   2° Modelo
G-----------------------------0---2--
D--------------------0---2-----------
A-----------0---2--------------------
E--0---3-----------------------------
   3° Modelo
G--------------------------------2---4-
D----------------------2---5-----------
A------------2---5---------------------
E--3---5-------------------------------
   4° Modelo
G-----------------------------------4---7--
D------------------------5---7-------------
A-------------5---7------------------------
E--5---7-----------------------------------
   5° Modelo
G-----------------------------------------7---9---
D----------------------------7---9----------------
A---------------7---10----------------------------
E--7---10-----------------------------------------
   1° Modelo
G-----------------------------------------9---12--
D----------------------------9---12----------------
A---------------10---12---------------------------
E--10---12----------------------------------------

Você pode conferir mais Tons em outras Postagens