VÍDEO AULAS

PARA ASSISTIR AULAS DE: VIOLÃO; GUITARRA; TECLADO E BAIXO, VÁ NOS MARCADORES: DICAS

Contra Baixo: Escala Pentatônica 7 ( LA Maior e FA# Menor )

By Jeffão Peres

Escala Pentatônica de LA Maior e FA# Menor
Movimento Descendente.
Para o movimento ascendente basta subir com a mesma digitação
   2° Modelo
G-----------------------------2---4--
D--------------------2---4-----------
A-----------2---4--------------------
E--2---5-----------------------------
   3° Modelo
G--------------------------------4---6-
D----------------------4---7-----------
A------------4---7---------------------
E--5---7-------------------------------
   4° Modelo
G-----------------------------------6---9--
D------------------------7---9-------------
A-------------7---9------------------------
E--7---9-----------------------------------
   5° Modelo
G-----------------------------------------9---11--
D----------------------------9---11---------------
A---------------9---12----------------------------
E--9---12-----------------------------------------
   1° Modelo
G-----------------------------------------11---14-
D----------------------------11---14--------------
A---------------12---14---------------------------
E--12---14----------------------------------------

Você pode conferir mais Tons em outras Postagens