VÍDEO AULAS

PARA ASSISTIR AULAS DE: VIOLÃO; GUITARRA; TECLADO E BAIXO, VÁ NOS MARCADORES: DICAS

Contra Baixo: Tríades de LA Maior e LA Menor


By Jeffão Peres

Obs: Tônica  III grau  V Grau

LA Maior
G------------------------------------------------6--9----------9------------9
D--------2---------2--------------------------7---------7--11----------11---
A--0--4---------4----------4--7---------7--------------------------12-------
E--------------5---------5----------5--9--------------------------------------

G-------------------------------------------------------------------------
D------11--14------------14------------14------------------------------
A--12------------12--16------------16------------16--19------------19-
E---------------------------------17------------17------------17--21----

LA Menor
G----------------------------------------------5--9----------9------------9-
D--------2---------2------------------------7---------7--10----------10----
A--0--3---------3---------3--7---------7-------------------------12--------
E-------------5----------5---------5--8--------------------------------------

G-------------------------------------------------------------------------
D------10--14------------14-----------14-------------------------------
A--12------------12--15-----------15------------15--19------------19-
E--------------------------------17------------17------------17--20----

Você pode conferir mais tons em outras Postagens