VÍDEO AULAS

PARA ASSISTIR AULAS DE: VIOLÃO; GUITARRA; TECLADO E BAIXO, VÁ NOS MARCADORES: DICAS

Contra Baixo: Tríades de MI Maior e MI Menor


By Jeffão Peres

Obs: Tônica  III grau  V Grau

MI Maior
G-----------------1--4----------4---------4---------------------------
D--------------2----------2--6---------6---------6--9-----------9----
A--------2---------------------------7---------7----------7--11------
E--0--4----------------------------------------------------------------

G----------------------------------------------------13--16-----------16-
D-----------9-----------------------------------14------------14--18-----
A------11------------11--14-------------12-------------------------------
E--12------------12------------12---16-----------------------------------

MI Menor
G-----------------0--4----------4----------4---------------------------
D--------------2----------2--5----------5----------5--9------------9--
A--------2----------------------------7----------7----------7--10-----
E--0--3-----------------------------------------------------------------

G--------------------------------------------------12--16-------------16--
D----------9----------------------------------14-------------14--17-------
A------10-----------10--14------------14----------------------------------
E--12-----------12------------12--15--------------------------------------

Você pode conferir mais tons em outras Postagens