VÍDEO AULAS

PARA ASSISTIR AULAS DE: VIOLÃO; GUITARRA; TECLADO E BAIXO, VÁ NOS MARCADORES: DICAS

Violão e Guitarra: Escala Pentatônica Blues 7 - Blue Note ( SOL )

By Jeffão Peres

Escala Pentatônica Blues de SOL
Movimento descendente.
Para o movimento ascendente, basta voltar subindo com as 
mesmas notas
Blue Notes

   1° Modelo
E----------------------------------------------1--3-
B-----------------------------------1--2--3--------
G----------------------------0--3-------------------
D---------------------0--3--------------------------
A----------1--3--4---------------------------------
E--1--3---------------------------------------------

  2° Modelo
E----------------------------------------------3--6-
B---------------------------------------3--6--------
G----------------------------3--5--6---------------
D---------------------3--5--------------------------
A----------3--4--5---------------------------------
E--3--6---------------------------------------------

  3° Modelo
E----------------------------------------------6--8--9-
B----------------------------------------6--8-----------
G-----------------------------5--6--7------------------
D---------------------5--8------------------------------
A--------------5--8-------------------------------------
E---6--8--9--------------------------------------------

  4° Modelo
E--------------------------------------------------------8--9--10-
B----------------------------------------------8--11---------------
G--------------------------------------7--10-----------------------
D------------------------8--10--11-------------------------------
A--------------8--10-----------------------------------------------
E--8--9--10-------------------------------------------------------

  5° Modelo
E-----------------------------------------------------------------10--13--
B-------------------------------------------------11--13--14------------
G---------------------------------------10--12----------------------------
D------------------------10--11--12-------------------------------------
A-------------10--13------------------------------------------------------
E--10--13-----------------------------------------------------------------

Você também pode conferir mais Tons em outras Postagens.